  0
SECTION
  2
HEADER
  9
$ACADVER
  1
AC1015
  9
$ACADMAINTVER
 70
     6
  9
$DWGCODEPAGE
  3
ANSI_1254
  9
$INSBASE
 10
0.0
 20
0.0
 30
0.0
  9
$EXTMIN
 10
0.0
 20
0.0
 30
0.0
  9
$EXTMAX
 10
279.4
 20
215.9
 30
0.0
  9
$LIMMIN
 10
0.0
 20
0.0
  9
$LIMMAX
 10
279.4
 20
215.9
  9
$ORTHOMODE
 70
     0
  9
$REGENMODE
 70
     1
  9
$FILLMODE
 70
     1
  9
$QTEXTMODE
 70
     0
  9
$MIRRTEXT
 70
     1
  9
$LTSCALE
 40
1.0
  9
$ATTMODE
 70
     1
  9
$TEXTSIZE
 40
3.5
  9
$TRACEWID
 40
1.0
  9
$TEXTSTYLE
  7
Standard
  9
$CLAYER
  8
0
  9
$CELTYPE
  6
ByLayer
  9
$CECOLOR
 62
   256
  9
$CELTSCALE
 40
1.0
  9
$DISPSILH
 70
     0
  9
$DIMSCALE
 40
1.0
  9
$DIMASZ
 40
3.5
  9
$DIMEXO
 40
1.0
  9
$DIMDLI
 40
3.75
  9
$DIMRND
 40
0.0
  9
$DIMDLE
 40
0.0
  9
$DIMEXE
 40
1.0
  9
$DIMTP
 40
0.0
  9
$DIMTM
 40
0.0
  9
$DIMTXT
 40
3.5
  9
$DIMCEN
 40
2.5
  9
$DIMTSZ
 40
0.0
  9
$DIMTOL
 70
     0
  9
$DIMLIM
 70
     0
  9
$DIMTIH
 70
     1
  9
$DIMTOH
 70
     1
  9
$DIMSE1
 70
     0
  9
$DIMSE2
 70
     0
  9
$DIMTAD
 70
     1
  9
$DIMZIN
 70
     0
  9
$DIMBLK
  1

  9
$DIMASO
 70
     1
  9
$DIMSHO
 70
     1
  9
$DIMPOST
  1

  9
$DIMAPOST
  1

  9
$DIMALT
 70
     0
  9
$DIMALTD
 70
     3
  9
$DIMALTF
 40
0.0393700787
  9
$DIMLFAC
 40
1.0
  9
$DIMTOFL
 70
     1
  9
$DIMTVP
 40
0.0
  9
$DIMTIX
 70
     0
  9
$DIMSOXD
 70
     0
  9
$DIMSAH
 70
     0
  9
$DIMBLK1
  1

  9
$DIMBLK2
  1

  9
$DIMSTYLE
  2
ISO-25
  9
$DIMCLRD
 70
     0
  9
$DIMCLRE
 70
     0
  9
$DIMCLRT
 70
     0
  9
$DIMTFAC
 40
1.0
  9
$DIMGAP
 40
1.524
  9
$DIMJUST
 70
     0
  9
$DIMSD1
 70
     0
  9
$DIMSD2
 70
     0
  9
$DIMTOLJ
 70
     0
  9
$DIMTZIN
 70
     0
  9
$DIMALTZ
 70
     0
  9
$DIMALTTZ
 70
     0
  9
$DIMUPT
 70
     0
  9
$DIMDEC
 70
     2
  9
$DIMTDEC
 70
     2
  9
$DIMALTU
 70
     2
  9
$DIMALTTD
 70
     3
  9
$DIMTXSTY
  7
Standard
  9
$DIMAUNIT
 70
     0
  9
$DIMADEC
 70
     2
  9
$DIMALTRND
 40
0.0
  9
$DIMAZIN
 70
     0
  9
$DIMDSEP
 70
    44
  9
$DIMATFIT
 70
     3
  9
$DIMFRAC
 70
     0
  9
$DIMLDRBLK
  1

  9
$DIMLUNIT
 70
     2
  9
$DIMLWD
 70
    -2
  9
$DIMLWE
 70
    -2
  9
$DIMTMOVE
 70
     0
  9
$LUNITS
 70
     2
  9
$LUPREC
 70
     2
  9
$SKETCHINC
 40
1.0
  9
$FILLETRAD
 40
10.0
  9
$AUNITS
 70
     0
  9
$AUPREC
 70
     2
  9
$MENU
  1
.
  9
$ELEVATION
 40
0.0
  9
$PELEVATION
 40
0.0
  9
$THICKNESS
 40
0.0
  9
$LIMCHECK
 70
     0
  9
$CHAMFERA
 40
0.0
  9
$CHAMFERB
 40
0.0
  9
$CHAMFERC
 40
0.0
  9
$CHAMFERD
 40
0.0
  9
$SKPOLY
 70
     0
  9
$TDCREATE
 40
2459935.709693241
  9
$TDUCREATE
 40
2459935.584693241
  9
$TDUPDATE
 40
2459935.709693414
  9
$TDUUPDATE
 40
2459935.584693414
  9
$TDINDWG
 40
0.0000000116
  9
$TDUSRTIMER
 40
0.0000000116
  9
$USRTIMER
 70
     1
  9
$ANGBASE
 50
0.0
  9
$ANGDIR
 70
     0
  9
$PDMODE
 70
     0
  9
$PDSIZE
 40
-1.0
  9
$PLINEWID
 40
0.0
  9
$SPLFRAME
 70
     0
  9
$SPLINETYPE
 70
     6
  9
$SPLINESEGS
 70
     8
  9
$HANDSEED
  5
F5
  9
$SURFTAB1
 70
     6
  9
$SURFTAB2
 70
     6
  9
$SURFTYPE
 70
     6
  9
$SURFU
 70
     6
  9
$SURFV
 70
     6
  9
$UCSBASE
  2

  9
$UCSNAME
  2

  9
$UCSORG
 10
0.0
 20
0.0
 30
0.0
  9
$UCSXDIR
 10
1.0
 20
0.0
 30
0.0
  9
$UCSYDIR
 10
0.0
 20
1.0
 30
0.0
  9
$UCSORTHOREF
  2

  9
$UCSORTHOVIEW
 70
     0
  9
$UCSORGTOP
 10
0.0
 20
0.0
 30
0.0
  9
$UCSORGBOTTOM
 10
0.0
 20
0.0
 30
0.0
  9
$UCSORGLEFT
 10
0.0
 20
0.0
 30
0.0
  9
$UCSORGRIGHT
 10
0.0
 20
0.0
 30
0.0
  9
$UCSORGFRONT
 10
0.0
 20
0.0
 30
0.0
  9
$UCSORGBACK
 10
0.0
 20
0.0
 30
0.0
  9
$PUCSBASE
  2

  9
$PUCSNAME
  2

  9
$PUCSORG
 10
0.0
 20
0.0
 30
0.0
  9
$PUCSXDIR
 10
1.0
 20
0.0
 30
0.0
  9
$PUCSYDIR
 10
0.0
 20
1.0
 30
0.0
  9
$PUCSORTHOREF
  2

  9
$PUCSORTHOVIEW
 70
     0
  9
$PUCSORGTOP
 10
0.0
 20
0.0
 30
0.0
  9
$PUCSORGBOTTOM
 10
0.0
 20
0.0
 30
0.0
  9
$PUCSORGLEFT
 10
0.0
 20
0.0
 30
0.0
  9
$PUCSORGRIGHT
 10
0.0
 20
0.0
 30
0.0
  9
$PUCSORGFRONT
 10
0.0
 20
0.0
 30
0.0
  9
$PUCSORGBACK
 10
0.0
 20
0.0
 30
0.0
  9
$USERI1
 70
     0
  9
$USERI2
 70
     0
  9
$USERI3
 70
     0
  9
$USERI4
 70
     0
  9
$USERI5
 70
     0
  9
$USERR1
 40
0.0
  9
$USERR2
 40
0.0
  9
$USERR3
 40
0.0
  9
$USERR4
 40
0.0
  9
$USERR5
 40
0.0
  9
$WORLDVIEW
 70
     1
  9
$SHADEDGE
 70
     3
  9
$SHADEDIF
 70
    70
  9
$TILEMODE
 70
     1
  9
$MAXACTVP
 70
    64
  9
$PINSBASE
 10
0.0
 20
0.0
 30
0.0
  9
$PLIMCHECK
 70
     0
  9
$PEXTMIN
 10
1.0000000000E+20
 20
1.0000000000E+20
 30
1.0000000000E+20
  9
$PEXTMAX
 10
-1.0000000000E+20
 20
-1.0000000000E+20
 30
-1.0000000000E+20
  9
$PLIMMIN
 10
0.0
 20
0.0
  9
$PLIMMAX
 10
420.0
 20
297.0
  9
$UNITMODE
 70
     0
  9
$VISRETAIN
 70
     1
  9
$PLINEGEN
 70
     0
  9
$PSLTSCALE
 70
     1
  9
$TREEDEPTH
 70
  3020
  9
$CMLSTYLE
  2
Standard
  9
$CMLJUST
 70
     0
  9
$CMLSCALE
 40
20.0
  9
$PROXYGRAPHICS
 70
     1
  9
$MEASUREMENT
 70
     1
  9
$CELWEIGHT
370
    -1
  9
$ENDCAPS
280
     0
  9
$JOINSTYLE
280
     0
  9
$LWDISPLAY
290
     1
  9
$INSUNITS
 70
     4
  9
$HYPERLINKBASE
  1

  9
$STYLESHEET
  1

  9
$XEDIT
290
     1
  9
$CEPSNTYPE
380
     0
  9
$PSTYLEMODE
290
     1
  9
$FINGERPRINTGUID
  2
{d3bc288b-8877-44b3-a29d-ccaf976b5d6c}
  9
$VERSIONGUID
  2
{FAEB1C32-E019-11D5-929B-00C0DF256EC4}
  9
$EXTNAMES
290
     1
  9
$PSVPSCALE
 40
0.0
  9
$OLESTARTUP
290
     0
  0
ENDSEC
  0
SECTION
  2
CLASSES
  0
CLASS
  1
ACDBDICTIONARYWDFLT
  2
AcDbDictionaryWithDefault
  3
ObjectDBX Classes
 90
        0
280
     0
281
     0
  0
CLASS
  1
VISUALSTYLE
  2
AcDbVisualStyle
  3
ObjectDBX Classes
 90
     4095
280
     0
281
     0
  0
CLASS
  1
MATERIAL
  2
AcDbMaterial
  3
ObjectDBX Classes
 90
     1153
280
     0
281
     0
  0
CLASS
  1
SCALE
  2
AcDbScale
  3
ObjectDBX Classes
 90
     1153
280
     0
281
     0
  0
CLASS
  1
TABLESTYLE
  2
AcDbTableStyle
  3
ObjectDBX Classes
 90
     4095
280
     0
281
     0
  0
CLASS
  1
MLEADERSTYLE
  2
AcDbMLeaderStyle
  3
ACDB_MLEADERSTYLE_CLASS
 90
     4095
280
     0
281
     0
  0
CLASS
  1
SUN
  2
AcDbSun
  3
SCENEOE
 90
     1153
280
     0
281
     0
  0
CLASS
  1
ACDBPLACEHOLDER
  2
AcDbPlaceHolder
  3
ObjectDBX Classes
 90
        0
280
     0
281
     0
  0
CLASS
  1
LAYOUT
  2
AcDbLayout
  3
ObjectDBX Classes
 90
        0
280
     0
281
     0
  0
ENDSEC
  0
SECTION
  2
TABLES
  0
TABLE
  2
VPORT
  5
8
330
0
100
AcDbSymbolTable
 70
     1
  0
VPORT
  5
29
330
8
100
AcDbSymbolTableRecord
100
AcDbViewportTableRecord
  2
*Active
 70
     0
 10
0.0
 20
0.0
 11
1.0
 21
1.0
 12
139.7
 22
107.95
 13
0.0
 23
0.0
 14
10.0
 24
10.0
 15
10.0
 25
10.0
 16
0.0
 26
0.0
 36
1.0
 17
0.0
 27
0.0
 37
0.0
 40
215.9
 41
1.2941176471
 42
50.0
 43
0.0
 44
0.0
 50
0.0
 51
0.0
 71
     0
 72
  2000
 73
     1
 74
     3
 75
     0
 76
     0
 77
     0
 78
     0
281
     0
 65
     1
110
0.0
120
0.0
130
0.0
111
1.0
121
0.0
131
0.0
112
0.0
122
1.0
132
0.0
 79
     0
146
0.0
  0
ENDTAB
  0
TABLE
  2
LTYPE
  5
5
330
0
100
AcDbSymbolTable
 70
     6
  0
LTYPE
  5
14
330
5
100
AcDbSymbolTableRecord
100
AcDbLinetypeTableRecord
  2
ByBlock
 70
     0
  3

 72
    65
 73
     0
 40
0.0
  0
LTYPE
  5
15
330
5
100
AcDbSymbolTableRecord
100
AcDbLinetypeTableRecord
  2
ByLayer
 70
     0
  3

 72
    65
 73
     0
 40
0.0
  0
LTYPE
  5
16
330
5
100
AcDbSymbolTableRecord
100
AcDbLinetypeTableRecord
  2
Continuous
 70
     0
  3
Solid line
 72
    65
 73
     0
 40
0.0
  0
LTYPE
  5
6E
330
5
100
AcDbSymbolTableRecord
100
AcDbLinetypeTableRecord
  2
HIDDEN
 70
     0
  3
Hidden __ __ __ __ __ __ __ __ __ __ __ __ __ __
 72
    65
 73
     2
 40
1.905
 49
1.27
 74
     0
 49
-0.635
 74
     0
  0
LTYPE
  5
6F
330
5
100
AcDbSymbolTableRecord
100
AcDbLinetypeTableRecord
  2
PHANTOM
 70
     0
  3
Phantom ______  __  __  ______  __  __  ______
 72
    65
 73
     6
 40
12.7
 49
6.35
 74
     0
 49
-1.27
 74
     0
 49
1.27
 74
     0
 49
-1.27
 74
     0
 49
1.27
 74
     0
 49
-1.27
 74
     0
  0
LTYPE
  5
70
330
5
100
AcDbSymbolTableRecord
100
AcDbLinetypeTableRecord
  2
CENTER
 70
     0
  3
Center ____ _ ____ _ ____ _ ____ _ ____ _ ____
 72
    65
 73
     4
 40
10.16
 49
6.35
 74
     0
 49
-1.27
 74
     0
 49
1.27
 74
     0
 49
-1.27
 74
     0
  0
LTYPE
  5
71
330
5
100
AcDbSymbolTableRecord
100
AcDbLinetypeTableRecord
  2
CENTERX2
 70
     0
  3
Center (2x) ________  __  ________  __  _____
 72
    65
 73
     4
 40
20.32
 49
12.7
 74
     0
 49
-2.54
 74
     0
 49
2.54
 74
     0
 49
-2.54
 74
     0
  0
LTYPE
  5
72
330
5
100
AcDbSymbolTableRecord
100
AcDbLinetypeTableRecord
  2
DOT2
 70
     0
  3
Dot (.5x) ........................................
 72
    65
 73
     2
 40
0.635
 49
0.0
 74
     0
 49
-0.635
 74
     0
  0
ENDTAB
  0
TABLE
  2
LAYER
  5
2
330
0
100
AcDbSymbolTable
 70
    17
  0
LAYER
  5
10
330
2
100
AcDbSymbolTableRecord
100
AcDbLayerTableRecord
  2
0
 70
     0
 62
     7
  6
Continuous
370
    -3
390
F
  0
LAYER
  5
73
330
2
100
AcDbSymbolTableRecord
100
AcDbLayerTableRecord
  2
FORMAT
 70
     0
 62
     7
  6
Continuous
370
    -3
390
F
  0
LAYER
  5
74
330
2
100
AcDbSymbolTableRecord
100
AcDbLayerTableRecord
  2
YARDIMCI_GEOMETRI
 70
     0
 62
    -6
  6
Continuous
290
     0
370
    -3
390
F
  0
LAYER
  5
75
330
2
100
AcDbSymbolTableRecord
100
AcDbLayerTableRecord
  2
SAYFA_CERCEVESI
 70
     0
 62
     7
  6
Continuous
370
    25
390
F
  0
LAYER
  5
76
330
2
100
AcDbSymbolTableRecord
100
AcDbLayerTableRecord
  2
ANTET
 70
     0
 62
     7
  6
Continuous
370
    -3
390
F
  0
LAYER
  5
77
330
2
100
AcDbSymbolTableRecord
100
AcDbLayerTableRecord
  2
OLCU
 70
     0
 62
   150
  6
Continuous
370
    -3
390
F
  0
LAYER
  5
78
330
2
100
AcDbSymbolTableRecord
100
AcDbLayerTableRecord
  2
METIN
 70
     0
 62
    96
  6
Continuous
370
    -3
390
F
  0
LAYER
  5
79
330
2
100
AcDbSymbolTableRecord
100
AcDbLayerTableRecord
  2
BALON
 70
     0
 62
     5
  6
Continuous
370
    -3
390
F
  0
LAYER
  5
7A
330
2
100
AcDbSymbolTableRecord
100
AcDbLayerTableRecord
  2
VURGU
 70
     0
 62
     7
  6
Continuous
370
    -3
390
F
  0
LAYER
  5
7B
330
2
100
AcDbSymbolTableRecord
100
AcDbLayerTableRecord
  2
SILIK
 70
     0
 62
     7
  6
Continuous
370
    -3
390
F
  0
LAYER
  5
7C
330
2
100
AcDbSymbolTableRecord
100
AcDbLayerTableRecord
  2
MODEL
 70
     0
 62
     7
  6
Continuous
370
    -3
390
F
  0
LAYER
  5
7D
330
2
100
AcDbSymbolTableRecord
100
AcDbLayerTableRecord
  2
DETAYLANDıRMA
 70
     0
 62
   190
  6
Continuous
370
    -3
390
F
  0
LAYER
  5
7E
330
2
100
AcDbSymbolTableRecord
100
AcDbLayerTableRecord
  2
TOLERANS
 70
     0
 62
   230
  6
Continuous
370
    -3
390
F
  0
LAYER
  5
7F
330
2
100
AcDbSymbolTableRecord
100
AcDbLayerTableRecord
  2
MERKEZ_CIZGILERI
 70
     0
 62
    30
  6
Continuous
370
    -3
390
F
  0
LAYER
  5
80
330
2
100
AcDbSymbolTableRecord
100
AcDbLayerTableRecord
  2
KESIT-DETAY_CIZGILERI
 70
     0
 62
     7
  6
Continuous
370
    -3
390
F
  0
LAYER
  5
81
330
2
100
AcDbSymbolTableRecord
100
AcDbLayerTableRecord
  2
\U+041E\U+0421\U+0415\U+0412\U+042B\U+0415
 70
     0
 62
     7
  6
Continuous
370
    -3
390
F
  0
LAYER
  5
82
330
2
100
AcDbSymbolTableRecord
100
AcDbLayerTableRecord
  2
\U+0412\U+041E\U+0414\U+042F\U+041D\U+042B\U+0415_\U+0417\U+041D\U+0410\U+041A\U+0418
 70
     0
 62
    11
  6
Continuous
370
    -3
390
F
  0
ENDTAB
  0
TABLE
  2
STYLE
  5
3
330
0
100
AcDbSymbolTable
 70
     1
  0
STYLE
  5
11
330
3
100
AcDbSymbolTableRecord
100
AcDbTextStyleTableRecord
  2
Standard
 70
     0
 40
0.0
 41
1.0
 50
0.0
 71
     0
 42
3.5
  3
txt
  4

  0
ENDTAB
  0
TABLE
  2
VIEW
  5
6
330
0
100
AcDbSymbolTable
 70
     0
  0
ENDTAB
  0
TABLE
  2
UCS
  5
7
330
0
100
AcDbSymbolTable
 70
     0
  0
ENDTAB
  0
TABLE
  2
APPID
  5
9
330
0
100
AcDbSymbolTable
 70
     1
  0
APPID
  5
12
330
9
100
AcDbSymbolTableRecord
100
AcDbRegAppTableRecord
  2
ACAD
 70
     0
  0
ENDTAB
  0
TABLE
  2
DIMSTYLE
  5
A
330
0
100
AcDbSymbolTable
 70
     1
100
AcDbDimStyleTable
  0
DIMSTYLE
105
27
330
A
100
AcDbSymbolTableRecord
100
AcDbDimStyleTableRecord
  2
ISO-25
 70
     0
 41
2.5
 42
0.625
 43
3.75
 44
1.25
 73
     0
 74
     0
 77
     1
 78
     8
140
2.5
141
2.5
143
0.0393700787
147
0.625
171
     3
172
     1
178
     0
271
     2
272
     2
274
     3
278
    44
283
     0
284
     8
340
11
  0
ENDTAB
  0
TABLE
  2
BLOCK_RECORD
  5
1
330
0
100
AcDbSymbolTable
 70
     2
  0
BLOCK_RECORD
  5
1F
330
1
100
AcDbSymbolTableRecord
100
AcDbBlockTableRecord
  2
*Model_Space
340
22
  0
BLOCK_RECORD
  5
1B
330
1
100
AcDbSymbolTableRecord
100
AcDbBlockTableRecord
  2
*Paper_Space
340
1E
  0
BLOCK_RECORD
  5
23
330
1
100
AcDbSymbolTableRecord
100
AcDbBlockTableRecord
  2
*Paper_Space0
340
26
  0
BLOCK_RECORD
  5
88
330
1
100
AcDbSymbolTableRecord
100
AcDbBlockTableRecord
  2
SW_CENTERMARKSYMBOL_0
340
0
102
{BLKREFS
331
93
102
}
  0
ENDTAB
  0
ENDSEC
  0
SECTION
  2
BLOCKS
  0
BLOCK
  5
20
330
1F
100
AcDbEntity
  8
0
100
AcDbBlockBegin
  2
*Model_Space
 70
     0
 10
0.0
 20
0.0
 30
0.0
  3
*Model_Space
  1

  0
ENDBLK
  5
21
330
1F
100
AcDbEntity
  8
0
100
AcDbBlockEnd
  0
BLOCK
  5
1C
330
1B
100
AcDbEntity
 67
     1
  8
0
100
AcDbBlockBegin
  2
*Paper_Space
 70
     0
 10
0.0
 20
0.0
 30
0.0
  3
*Paper_Space
  1

  0
ENDBLK
  5
1D
330
1B
100
AcDbEntity
 67
     1
  8
0
100
AcDbBlockEnd
  0
BLOCK
  5
24
330
23
100
AcDbEntity
  8
0
100
AcDbBlockBegin
  2
*Paper_Space0
 70
     0
 10
0.0
 20
0.0
 30
0.0
  3
*Paper_Space0
  1

  0
ENDBLK
  5
25
330
23
100
AcDbEntity
  8
0
100
AcDbBlockEnd
  0
BLOCK
  5
89
330
88
100
AcDbEntity
  8
0
100
AcDbBlockBegin
  2
SW_CENTERMARKSYMBOL_0
 70
     0
 10
0.0
 20
0.0
 30
0.0
  3
SW_CENTERMARKSYMBOL_0
  1

  0
LINE
  5
8B
330
88
100
AcDbEntity
  8
FORMAT
 62
     0
100
AcDbLine
 10
0.0
 20
0.0
 30
0.0
 11
0.0
 21
2.5
 31
0.0
  0
LINE
  5
8C
330
88
100
AcDbEntity
  8
FORMAT
 62
     0
100
AcDbLine
 10
0.0
 20
0.0
 30
0.0
 11
-2.5
 21
0.0
 31
0.0
  0
LINE
  5
8D
330
88
100
AcDbEntity
  8
FORMAT
 62
     0
100
AcDbLine
 10
0.0
 20
0.0
 30
0.0
 11
0.0
 21
-2.5
 31
0.0
  0
LINE
  5
8E
330
88
100
AcDbEntity
  8
FORMAT
 62
     0
100
AcDbLine
 10
0.0
 20
0.0
 30
0.0
 11
2.5
 21
0.0
 31
0.0
  0
LINE
  5
8F
330
88
100
AcDbEntity
  8
FORMAT
 62
     0
100
AcDbLine
 10
0.0
 20
5.0
 30
0.0
 11
0.0
 21
112.05
 31
0.0
  0
LINE
  5
90
330
88
100
AcDbEntity
  8
FORMAT
 62
     0
100
AcDbLine
 10
-5.0
 20
0.0
 30
0.0
 11
-112.05
 21
0.0
 31
0.0
  0
LINE
  5
91
330
88
100
AcDbEntity
  8
FORMAT
 62
     0
100
AcDbLine
 10
0.0
 20
-5.0
 30
0.0
 11
0.0
 21
-112.05
 31
0.0
  0
LINE
  5
92
330
88
100
AcDbEntity
  8
FORMAT
 62
     0
100
AcDbLine
 10
5.0
 20
0.0
 30
0.0
 11
112.05
 21
0.0
 31
0.0
  0
ENDBLK
  5
8A
330
88
100
AcDbEntity
  8
0
100
AcDbBlockEnd
  0
ENDSEC
  0
SECTION
  2
ENTITIES
  0
CIRCLE
  5
83
330
1F
100
AcDbEntity
  8
0
  6
Continuous
 62
     7
370
    25
100
AcDbCircle
 10
137.9424909615
 20
108.5958316346
 30
0.0
 40
84.13999999999999
  0
CIRCLE
  5
84
330
1F
100
AcDbEntity
  8
0
  6
Continuous
 62
     7
370
    25
100
AcDbCircle
 10
137.9424909615
 20
108.5958316346
 30
0.0
 40
77.03999999999999
  0
CIRCLE
  5
85
330
1F
100
AcDbEntity
  8
0
  6
Continuous
 62
     7
370
    25
100
AcDbCircle
 10
137.9424909615
 20
108.5958316346
 30
0.0
 40
86.64000000000001
  0
CIRCLE
  5
86
330
1F
100
AcDbEntity
  8
0
  6
Continuous
 62
     7
370
    25
100
AcDbCircle
 10
137.9424909615
 20
108.5958316346
 30
0.0
 40
109.55
  0
CIRCLE
  5
87
330
1F
100
AcDbEntity
  8
0
  6
Continuous
 62
     7
370
    25
100
AcDbCircle
 10
137.9424909615
 20
108.5958316346
 30
0.0
 40
51.10000000000002
  0
INSERT
  5
93
330
1F
100
AcDbEntity
  8
FORMAT
 62
     7
100
AcDbBlockReference
  2
SW_CENTERMARKSYMBOL_0
 10
137.9424909615
 20
108.5958316346
 30
0.0
  0
LINE
  5
94
330
1F
100
AcDbEntity
  8
0
  6
Continuous
 62
     7
370
    25
100
AcDbLine
 10
-648.0355054553
 20
218.1458316346
 30
0.0
 11
-720.0355054553
 21
171.0958316346
 31
0.0
  0
LINE
  5
95
330
1F
100
AcDbEntity
  8
0
  6
Continuous
 62
     7
370
    25
100
AcDbLine
 10
-720.0355054553
 20
46.0958316346
 30
0.0
 11
-648.0355054553
 21
-0.9541683654
 31
0.0
  0
LINE
  5
96
330
1F
100
AcDbEntity
  8
0
  6
Continuous
 62
     7
370
    25
100
AcDbLine
 10
-540.0355054553
 20
218.1458316346
 30
0.0
 11
-648.0355054553
 21
218.1458316346
 31
0.0
  0
LINE
  5
97
330
1F
100
AcDbEntity
  8
0
  6
Continuous
 62
     7
370
    25
100
AcDbLine
 10
-648.0355054553
 20
-0.9541683654
 30
0.0
 11
-540.0355054553
 21
-0.9541683654
 31
0.0
  0
LINE
  5
98
330
1F
100
AcDbEntity
  8
0
  6
Continuous
 62
     7
370
    25
100
AcDbLine
 10
-282.0355054553
 20
195.2358316346
 30
0.0
 11
-540.0355054553
 21
195.2358316346
 31
0.0
  0
LINE
  5
99
330
1F
100
AcDbEntity
  8
0
  6
Continuous
 62
     7
370
    25
100
AcDbLine
 10
-540.0355054553
 20
21.9558316346
 30
0.0
 11
-282.0355054553
 21
21.9558316346
 31
0.0
  0
LINE
  5
9A
330
1F
100
AcDbEntity
  8
0
  6
Continuous
 62
     7
370
    25
100
AcDbLine
 10
-227.0355054553
 20
192.7358316346
 30
0.0
 11
-282.0355054553
 21
192.7358316346
 31
0.0
  0
LINE
  5
9B
330
1F
100
AcDbEntity
  8
0
  6
Continuous
 62
     7
370
    25
100
AcDbLine
 10
-282.0355054553
 20
24.4558316346
 30
0.0
 11
-227.0355054553
 21
24.4558316346
 31
0.0
  0
LINE
  5
9C
330
1F
100
AcDbEntity
  8
0
  6
Continuous
 62
     7
370
    25
100
AcDbLine
 10
-720.0355054553
 20
171.0958316346
 30
0.0
 11
-890.0355054553
 21
171.0958316346
 31
0.0
  0
LINE
  5
9D
330
1F
100
AcDbEntity
  8
0
  6
Continuous
 62
     7
370
    25
100
AcDbLine
 10
-890.0355054553
 20
46.0958316346
 30
0.0
 11
-720.0355054553
 21
46.0958316346
 31
0.0
  0
LINE
  5
9E
330
1F
100
AcDbEntity
  8
0
  6
Continuous
 62
     7
370
    25
100
AcDbLine
 10
-720.0355054553
 20
171.0958316346
 30
0.0
 11
-720.0355054553
 21
46.0958316346
 31
0.0
  0
LINE
  5
9F
330
1F
100
AcDbEntity
  8
0
  6
Continuous
 62
     7
370
    25
100
AcDbLine
 10
-648.0355054553
 20
218.1458316346
 30
0.0
 11
-648.0355054553
 21
-0.9541683654
 31
0.0
  0
LINE
  5
A0
330
1F
100
AcDbEntity
  8
0
  6
Continuous
 62
     7
370
    25
100
AcDbLine
 10
-540.0355054553
 20
218.1458316346
 30
0.0
 11
-540.0355054553
 21
-0.9541683654
 31
0.0
  0
LINE
  5
A1
330
1F
100
AcDbEntity
  8
0
  6
Continuous
 62
     7
370
    25
100
AcDbLine
 10
-282.0355054553
 20
195.2358316346
 30
0.0
 11
-282.0355054553
 21
21.9558316346
 31
0.0
  0
LINE
  5
A2
330
1F
100
AcDbEntity
  8
0
  6
Continuous
 62
     7
370
    25
100
AcDbLine
 10
-227.0355054553
 20
192.7358316346
 30
0.0
 11
-227.0355054553
 21
24.4558316346
 31
0.0
  0
LINE
  5
A3
330
1F
100
AcDbEntity
  8
0
  6
Continuous
 62
     7
370
    25
100
AcDbLine
 10
-890.0355054553
 20
171.0958316346
 30
0.0
 11
-890.0355054553
 21
46.0958316346
 31
0.0
  0
LINE
  5
A4
330
1F
100
AcDbEntity
  8
0
  6
Continuous
 62
     7
370
    25
100
AcDbLine
 10
897.4934590105
 20
-0.9541683654
 30
0.0
 11
969.4934590105
 21
46.0958316346
 31
0.0
  0
LINE
  5
A5
330
1F
100
AcDbEntity
  8
0
  6
Continuous
 62
     7
370
    25
100
AcDbLine
 10
969.4934590105
 20
171.0958316346
 30
0.0
 11
897.4934590105
 21
218.1458316346
 31
0.0
  0
LINE
  5
A6
330
1F
100
AcDbEntity
  8
0
  6
Continuous
 62
     7
370
    25
100
AcDbLine
 10
789.4934590105
 20
-0.9541683654
 30
0.0
 11
897.4934590105
 21
-0.9541683654
 31
0.0
  0
LINE
  5
A7
330
1F
100
AcDbEntity
  8
0
  6
Continuous
 62
     7
370
    25
100
AcDbLine
 10
897.4934590105
 20
218.1458316346
 30
0.0
 11
789.4934590105
 21
218.1458316346
 31
0.0
  0
LINE
  5
A8
330
1F
100
AcDbEntity
  8
0
  6
Continuous
 62
     7
370
    25
100
AcDbLine
 10
531.4934590105
 20
21.9558316346
 30
0.0
 11
789.4934590105
 21
21.9558316346
 31
0.0
  0
LINE
  5
A9
330
1F
100
AcDbEntity
  8
0
  6
Continuous
 62
     7
370
    25
100
AcDbLine
 10
789.4934590105
 20
195.2358316346
 30
0.0
 11
531.4934590105
 21
195.2358316346
 31
0.0
  0
LINE
  5
AA
330
1F
100
AcDbEntity
  8
0
  6
Continuous
 62
     7
370
    25
100
AcDbLine
 10
476.4934590105
 20
24.4558316346
 30
0.0
 11
531.4934590105
 21
24.4558316346
 31
0.0
  0
LINE
  5
AB
330
1F
100
AcDbEntity
  8
0
  6
Continuous
 62
     7
370
    25
100
AcDbLine
 10
531.4934590105
 20
192.7358316346
 30
0.0
 11
476.4934590105
 21
192.7358316346
 31
0.0
  0
LINE
  5
AC
330
1F
100
AcDbEntity
  8
0
  6
Continuous
 62
     7
370
    25
100
AcDbLine
 10
969.4934590105
 20
46.0958316346
 30
0.0
 11
1139.4934590105
 21
46.0958316346
 31
0.0
  0
LINE
  5
AD
330
1F
100
AcDbEntity
  8
0
  6
Continuous
 62
     7
370
    25
100
AcDbLine
 10
1139.4934590105
 20
171.0958316346
 30
0.0
 11
969.4934590105
 21
171.0958316346
 31
0.0
  0
LINE
  5
AE
330
1F
100
AcDbEntity
  8
0
  6
Continuous
 62
     7
370
    25
100
AcDbLine
 10
969.4934590105
 20
108.5958316346
 30
0.0
 11
969.4934590105
 21
171.0958316346
 31
0.0
  0
LINE
  5
AF
330
1F
100
AcDbEntity
  8
0
  6
Continuous
 62
     7
370
    25
100
AcDbLine
 10
969.4934590105
 20
46.0958316346
 30
0.0
 11
969.4934590105
 21
108.5958316346
 31
0.0
  0
LINE
  5
B0
330
1F
100
AcDbEntity
  8
0
  6
Continuous
 62
     7
370
    25
100
AcDbLine
 10
897.4934590105
 20
108.5958316346
 30
0.0
 11
897.4934590105
 21
218.1458316346
 31
0.0
  0
LINE
  5
B1
330
1F
100
AcDbEntity
  8
0
  6
Continuous
 62
     7
370
    25
100
AcDbLine
 10
897.4934590105
 20
-0.9541683654
 30
0.0
 11
897.4934590105
 21
108.5958316346
 31
0.0
  0
LINE
  5
B2
330
1F
100
AcDbEntity
  8
0
  6
Continuous
 62
     7
370
    25
100
AcDbLine
 10
789.4934590105
 20
108.5958316346
 30
0.0
 11
789.4934590105
 21
218.1458316346
 31
0.0
  0
LINE
  5
B3
330
1F
100
AcDbEntity
  8
0
  6
Continuous
 62
     7
370
    25
100
AcDbLine
 10
789.4934590105
 20
-0.9541683654
 30
0.0
 11
789.4934590105
 21
108.5958316346
 31
0.0
  0
LINE
  5
B4
330
1F
100
AcDbEntity
  8
0
  6
Continuous
 62
     7
370
    25
100
AcDbLine
 10
531.4934590105
 20
108.5958316346
 30
0.0
 11
531.4934590105
 21
195.2358316346
 31
0.0
  0
LINE
  5
B5
330
1F
100
AcDbEntity
  8
0
  6
Continuous
 62
     7
370
    25
100
AcDbLine
 10
531.4934590105
 20
21.9558316346
 30
0.0
 11
531.4934590105
 21
108.5958316346
 31
0.0
  0
LINE
  5
B6
330
1F
100
AcDbEntity
  8
0
  6
Continuous
 62
     7
370
    25
100
AcDbLine
 10
476.4934590105
 20
108.5958316346
 30
0.0
 11
476.4934590105
 21
192.7358316346
 31
0.0
  0
LINE
  5
B7
330
1F
100
AcDbEntity
  8
0
  6
Continuous
 62
     7
370
    25
100
AcDbLine
 10
476.4934590105
 20
24.4558316346
 30
0.0
 11
476.4934590105
 21
108.5958316346
 31
0.0
  0
LINE
  5
B8
330
1F
100
AcDbEntity
  8
0
  6
Continuous
 62
     7
370
    25
100
AcDbLine
 10
1139.4934590105
 20
108.5958316346
 30
0.0
 11
1139.4934590105
 21
171.0958316346
 31
0.0
  0
LINE
  5
B9
330
1F
100
AcDbEntity
  8
0
  6
Continuous
 62
     7
370
    25
100
AcDbLine
 10
1139.4934590105
 20
46.0958316346
 30
0.0
 11
1139.4934590105
 21
108.5958316346
 31
0.0
  0
LINE
  5
BA
330
1F
100
AcDbEntity
  8
0
  6
Continuous
 62
     7
370
    25
100
AcDbLine
 10
28.3924909615
 20
-591.5477390089
 30
0.0
 11
75.4424909615
 21
-663.5477390089
 31
0.0
  0
LINE
  5
BB
330
1F
100
AcDbEntity
  8
0
  6
Continuous
 62
     7
370
    25
100
AcDbLine
 10
200.4424909615
 20
-663.5477390089
 30
0.0
 11
247.4924909615
 21
-591.5477390089
 31
0.0
  0
LINE
  5
BC
330
1F
100
AcDbEntity
  8
0
  6
Continuous
 62
     7
370
    25
100
AcDbLine
 10
28.3924909615
 20
-483.5477390089
 30
0.0
 11
28.3924909615
 21
-591.5477390089
 31
0.0
  0
LINE
  5
BD
330
1F
100
AcDbEntity
  8
0
  6
Continuous
 62
     7
370
    25
100
AcDbLine
 10
247.4924909615
 20
-591.5477390089
 30
0.0
 11
247.4924909615
 21
-483.5477390089
 31
0.0
  0
LINE
  5
BE
330
1F
100
AcDbEntity
  8
0
  6
Continuous
 62
     7
370
    25
100
AcDbLine
 10
51.3024909615
 20
-225.5477390089
 30
0.0
 11
51.3024909615
 21
-483.5477390089
 31
0.0
  0
LINE
  5
BF
330
1F
100
AcDbEntity
  8
0
  6
Continuous
 62
     7
370
    25
100
AcDbLine
 10
224.5824909615
 20
-483.5477390089
 30
0.0
 11
224.5824909615
 21
-225.5477390089
 31
0.0
  0
LINE
  5
C0
330
1F
100
AcDbEntity
  8
0
  6
Continuous
 62
     7
370
    25
100
AcDbLine
 10
53.8024909615
 20
-170.5477390089
 30
0.0
 11
53.8024909615
 21
-225.5477390089
 31
0.0
  0
LINE
  5
C1
330
1F
100
AcDbEntity
  8
0
  6
Continuous
 62
     7
370
    25
100
AcDbLine
 10
222.0824909615
 20
-225.5477390089
 30
0.0
 11
222.0824909615
 21
-170.5477390089
 31
0.0
  0
LINE
  5
C2
330
1F
100
AcDbEntity
  8
0
  6
Continuous
 62
     7
370
    25
100
AcDbLine
 10
75.4424909615
 20
-663.5477390089
 30
0.0
 11
75.4424909615
 21
-833.5477390089
 31
0.0
  0
LINE
  5
C3
330
1F
100
AcDbEntity
  8
0
  6
Continuous
 62
     7
370
    25
100
AcDbLine
 10
200.4424909615
 20
-833.5477390089
 30
0.0
 11
200.4424909615
 21
-663.5477390089
 31
0.0
  0
LINE
  5
C4
330
1F
100
AcDbEntity
  8
0
  6
Continuous
 62
     7
370
    25
100
AcDbLine
 10
75.4424909615
 20
-663.5477390089
 30
0.0
 11
200.4424909615
 21
-663.5477390089
 31
0.0
  0
LINE
  5
C5
330
1F
100
AcDbEntity
  8
0
  6
Continuous
 62
     7
370
    25
100
AcDbLine
 10
28.3924909615
 20
-591.5477390089
 30
0.0
 11
247.4924909615
 21
-591.5477390089
 31
0.0
  0
LINE
  5
C6
330
1F
100
AcDbEntity
  8
0
  6
Continuous
 62
     7
370
    25
100
AcDbLine
 10
28.3924909615
 20
-483.5477390089
 30
0.0
 11
247.4924909615
 21
-483.5477390089
 31
0.0
  0
LINE
  5
C7
330
1F
100
AcDbEntity
  8
0
  6
Continuous
 62
     7
370
    25
100
AcDbLine
 10
51.3024909615
 20
-225.5477390089
 30
0.0
 11
224.5824909615
 21
-225.5477390089
 31
0.0
  0
LINE
  5
C8
330
1F
100
AcDbEntity
  8
0
  6
Continuous
 62
     7
370
    25
100
AcDbLine
 10
53.8024909615
 20
-170.5477390089
 30
0.0
 11
222.0824909615
 21
-170.5477390089
 31
0.0
  0
LINE
  5
C9
330
1F
100
AcDbEntity
  8
0
  6
Continuous
 62
     7
370
    25
100
AcDbLine
 10
75.4424909615
 20
-833.5477390089
 30
0.0
 11
200.4424909615
 21
-833.5477390089
 31
0.0
  0
LINE
  5
CA
330
1F
100
AcDbEntity
  8
0
  6
Continuous
 62
     7
370
    25
100
AcDbLine
 10
247.4924909615
 20
839.4425380197
 30
0.0
 11
200.4424909615
 21
911.4425380197
 31
0.0
  0
LINE
  5
CB
330
1F
100
AcDbEntity
  8
0
  6
Continuous
 62
     7
370
    25
100
AcDbLine
 10
75.4424909615
 20
911.4425380197
 30
0.0
 11
28.3924909615
 21
839.4425380197
 31
0.0
  0
LINE
  5
CC
330
1F
100
AcDbEntity
  8
0
  6
Continuous
 62
     7
370
    25
100
AcDbLine
 10
247.4924909615
 20
731.4425380197
 30
0.0
 11
247.4924909615
 21
839.4425380197
 31
0.0
  0
LINE
  5
CD
330
1F
100
AcDbEntity
  8
0
  6
Continuous
 62
     7
370
    25
100
AcDbLine
 10
28.3924909615
 20
839.4425380197
 30
0.0
 11
28.3924909615
 21
731.4425380197
 31
0.0
  0
LINE
  5
CE
330
1F
100
AcDbEntity
  8
0
  6
Continuous
 62
     7
370
    25
100
AcDbLine
 10
224.5824909615
 20
473.4425380197
 30
0.0
 11
224.5824909615
 21
731.4425380197
 31
0.0
  0
LINE
  5
CF
330
1F
100
AcDbEntity
  8
0
  6
Continuous
 62
     7
370
    25
100
AcDbLine
 10
51.3024909615
 20
731.4425380197
 30
0.0
 11
51.3024909615
 21
473.4425380197
 31
0.0
  0
LINE
  5
D0
330
1F
100
AcDbEntity
  8
0
  6
Continuous
 62
     7
370
    25
100
AcDbLine
 10
222.0824909615
 20
418.4425380197
 30
0.0
 11
222.0824909615
 21
473.4425380197
 31
0.0
  0
LINE
  5
D1
330
1F
100
AcDbEntity
  8
0
  6
Continuous
 62
     7
370
    25
100
AcDbLine
 10
53.8024909615
 20
473.4425380197
 30
0.0
 11
53.8024909615
 21
418.4425380197
 31
0.0
  0
LINE
  5
D2
330
1F
100
AcDbEntity
  8
0
  6
Continuous
 62
     7
370
    25
100
AcDbLine
 10
200.4424909615
 20
911.4425380197
 30
0.0
 11
200.4424909615
 21
1081.4425380197
 31
0.0
  0
LINE
  5
D3
330
1F
100
AcDbEntity
  8
0
  6
Continuous
 62
     7
370
    25
100
AcDbLine
 10
75.4424909615
 20
1081.4425380197
 30
0.0
 11
75.4424909615
 21
911.4425380197
 31
0.0
  0
LINE
  5
D4
330
1F
100
AcDbEntity
  8
0
  6
Continuous
 62
     7
370
    25
100
AcDbLine
 10
200.4424909615
 20
911.4425380197
 30
0.0
 11
75.4424909615
 21
911.4425380197
 31
0.0
  0
LINE
  5
D5
330
1F
100
AcDbEntity
  8
0
  6
Continuous
 62
     7
370
    25
100
AcDbLine
 10
247.4924909615
 20
839.4425380197
 30
0.0
 11
28.3924909615
 21
839.4425380197
 31
0.0
  0
LINE
  5
D6
330
1F
100
AcDbEntity
  8
0
  6
Continuous
 62
     7
370
    25
100
AcDbLine
 10
247.4924909615
 20
731.4425380197
 30
0.0
 11
28.3924909615
 21
731.4425380197
 31
0.0
  0
LINE
  5
D7
330
1F
100
AcDbEntity
  8
0
  6
Continuous
 62
     7
370
    25
100
AcDbLine
 10
224.5824909615
 20
473.4425380197
 30
0.0
 11
51.3024909615
 21
473.4425380197
 31
0.0
  0
LINE
  5
D8
330
1F
100
AcDbEntity
  8
0
  6
Continuous
 62
     7
370
    25
100
AcDbLine
 10
222.0824909615
 20
418.4425380197
 30
0.0
 11
53.8024909615
 21
418.4425380197
 31
0.0
  0
LINE
  5
D9
330
1F
100
AcDbEntity
  8
0
  6
Continuous
 62
     7
370
    25
100
AcDbLine
 10
200.4424909615
 20
1081.4425380197
 30
0.0
 11
75.4424909615
 21
1081.4425380197
 31
0.0
  0
LINE
  5
DA
330
1F
100
AcDbEntity
  8
0
  6
Continuous
 62
     7
370
    25
100
AcDbLine
 10
457.8077509098
 20
-336.6093953349
 30
0.0
 11
496.6986238751
 21
-359.06061841
 31
0.0
  0
LINE
  5
DB
330
1F
100
AcDbEntity
  8
0
  6
Continuous
 62
     7
370
    25
100
AcDbLine
 10
580.8317860391
 20
-213.3219158486
 30
0.0
 11
541.9409130738
 21
-190.8706927734
 31
0.0
  0
LINE
  5
DC
330
1F
100
AcDbEntity
  8
0
  6
Continuous
 62
     7
370
    25
100
AcDbLine
 10
495.4487254593
 20
-361.2257405659
 30
0.0
 11
677.8822750054
 21
-466.5423869911
 31
0.0
  0
LINE
  5
DD
330
1F
100
AcDbEntity
  8
0
  6
Continuous
 62
     7
370
    25
100
AcDbLine
 10
764.515234001
 20
-316.4734401177
 30
0.0
 11
582.0816844549
 21
-211.1567936926
 31
0.0
  0
LINE
  5
DE
330
1F
100
AcDbEntity
  8
0
  6
Continuous
 62
     7
370
    25
100
AcDbLine
 10
666.428205923
 20
-486.3835664282
 30
0.0
 11
742.7957382912
 21
-530.4696044666
 31
0.0
  0
LINE
  5
DF
330
1F
100
AcDbEntity
  8
0
  6
Continuous
 62
     7
370
    25
100
AcDbLine
 10
852.3368354515
 20
-340.718298719
 30
0.0
 11
775.9693030833
 21
-296.6322606806
 31
0.0
  0
LINE
  5
E0
330
1F
100
AcDbEntity
  8
0
  6
Continuous
 62
     7
370
    25
100
AcDbLine
 10
774.3088402815
 20
-534.3453244739
 30
0.0
 11
835.20923562
 21
-521.3238568094
 31
0.0
  0
LINE
  5
E1
330
1F
100
AcDbEntity
  8
0
  6
Continuous
 62
     7
370
    25
100
AcDbLine
 10
890.6310733494
 20
-425.3200157972
 30
0.0
 11
871.4522374535
 21
-366.0697919478
 31
0.0
  0
LINE
  5
E2
330
1F
100
AcDbEntity
  8
0
  6
Continuous
 62
     7
370
    25
100
AcDbLine
 10
824.8847520582
 20
-523.5313946769
 30
0.0
 11
937.4386675236
 21
-588.5073870222
 31
0.0
  0
LINE
  5
E3
330
1F
100
AcDbEntity
  8
0
  6
Continuous
 62
     7
370
    25
100
AcDbLine
 10
999.9335883134
 20
-480.2512792246
 30
0.0
 11
887.3796728479
 21
-415.2752868793
 31
0.0
  0
LWPOLYLINE
  5
E4
330
1F
100
AcDbEntity
  8
0
  6
Continuous
 62
     7
370
    25
100
AcDbPolyline
 90
       98
 70
   128
 43
0.0
 10
559.3702965608
 20
-229.3937547898
 10
559.245523185
 20
-225.0186040614
 10
558.8717264003
 20
-220.805864509
 10
558.2504740404
 20
-216.7732058262
 10
557.3843718537
 20
-212.9375423852
 10
556.2770525736
 20
-209.3149622912
 10
554.9331606821
 20
-205.9206599043
 10
553.3583329287
 20
-202.7688721081
 10
551.5591746884
 20
-199.872818596
 10
549.5432322561
 20
-197.2446464229
 10
547.3189611949
 20
-194.8953790563
 10
544.8956908706
 20
-192.8348701399
 10
542.2835853212
 20
-191.0717621642
 10
539.4936006251
 20
-189.6134502167
 10
536.5374389476
 20
-188.4660509646
 10
533.4274994583
 20
-187.6343769991
 10
530.176826324
 20
-187.1219166498
 10
526.7990539977
 20
-186.9308193536
 10
523.3083500302
 20
-187.0618866388
 10
519.7193556472
 20
-187.5145687637
 10
516.0471243384
 20
-188.2869670223
 10
512.307058718
 20
-189.3758417077
 10
508.514845921
 20
-190.7766257012
 10
504.6863918059
 20
-192.4834436278
 10
500.8377542395
 20
-194.4891365
 10
496.9850757455
 20
-196.7852917449
 10
493.1445157962
 20
-199.3622784893
 10
489.3321830348
 20
-202.2092879555
 10
485.5640677099
 20
-205.3143787961
 10
481.8559746064
 20
-208.6645271812
 10
478.2234567557
 20
-212.2456814242
 10
474.6817501999
 20
-216.0428209196
 10
471.2457100873
 20
-220.0400191448
 10
467.929748364
 20
-224.2205104612
 10
464.747773326
 20
-228.5667604356
 10
461.7131312823
 20
-233.0605393851
 10
458.8385505764
 20
-237.682998839
 10
456.1360881987
 20
-242.414750596
 10
453.6170792156
 20
-247.2359480448
 10
451.2920892262
 20
-252.1263694079
 10
449.1708700464
 20
-257.0655025585
 10
447.2623188068
 20
-262.0326310557
 10
445.5744406344
 20
-267.0069210363
 10
444.1143150769
 20
-271.9675085996
 10
442.8880664083
 20
-276.8935873173
 10
441.9008379417
 20
-281.7644955035
 10
441.1567704564
 20
-286.5598028762
 10
440.6589848299
 20
-291.2593962501
 10
440.4095689482
 20
-295.8435638972
 10
440.4095689482
 20
-300.2930782253
 10
440.6589848299
 20
-304.5892764251
 10
441.1567704564
 20
-308.7141387481
 10
441.9008379417
 20
-312.6503640884
 10
442.8880664083
 20
-316.3814425489
 10
444.1143150769
 20
-319.89172469
 10
445.5744406344
 20
-323.1664871684
 10
447.2623188068
 20
-326.1919944922
 10
449.1708700464
 20
-328.9555566323
 10
451.2920892262
 20
-331.4455822487
 10
453.6170792156
 20
-333.6516273085
 10
456.1360881987
 20
-335.5644388922
 10
458.8385505764
 20
-337.1759940032
 10
461.7131312823
 20
-338.4795332192
 10
464.747773326
 20
-339.469589044
 10
467.929748364
 20
-340.1420088391
 10
471.2457100873
 20
-340.4939722424
 10
474.6817501999
 20
-340.524002997
 10
478.2234567557
 20
-340.2319751435
 10
481.8559746064
 20
-339.6191135481
 10
485.5640677099
 20
-338.6879887655
 10
489.3321830348
 20
-337.4425062565
 10
493.1445157962
 20
-335.8878900076
 10
496.9850757455
 20
-334.0306606196
 10
500.8377542395
 20
-331.878607958
 10
504.6863918059
 20
-329.4407584796
 10
508.514845921
 20
-326.7273373722
 10
512.307058718
 20
-323.7497256671
 10
516.0471243384
 20
-320.5204125024
 10
519.7193556472
 20
-317.0529427399
 10
523.3083500302
 20
-313.3618601528
 10
526.7990539977
 20
-309.4626464241
 10
530.176826324
 20
-305.3716562114
 10
533.4274994583
 20
-301.1060485493
 10
536.5374389476
 20
-296.6837148787
 10
539.4936006251
 20
-292.1232040039
 10
542.2835853212
 20
-287.4436442925
 10
544.8956908706
 20
-282.6646634441
 10
547.3189611949
 20
-277.8063061652
 10
549.5432322561
 20
-272.8889500946
 10
551.5591746884
 20
-267.9332203327
 10
553.3583329287
 20
-262.9599029321
 10
554.9331606821
 20
-257.9898577146
 10
556.2770525736
 20
-253.0439307769
 10
557.3843718537
 20
-248.1428670555
 10
558.2504740404
 20
-243.3072233148
 10
558.8717264003
 20
-238.5572819251
 10
559.245523185
 20
-233.9129657915
 10
559.3702965608
 20
-229.3937547898
  0
LWPOLYLINE
  5
E5
330
1F
100
AcDbEntity
  8
0
  6
Continuous
 62
     7
370
    25
100
AcDbPolyline
 90
       94
 70
   128
 43
0.0
 10
554.3498384144
 20
-232.2920035867
 10
554.2255587938
 20
-228.1169600158
 10
553.8532869912
 20
-224.1044564068
 10
553.2347215976
 20
-220.2728008934
 10
552.372684985
 20
-216.6394764409
 10
551.2711104287
 20
-213.2210610755
 10
549.9350241608
 20
-210.0331522423
 10
548.3705224365
 20
-207.0902956382
 10
546.5847437182
 20
-204.405918843
 10
544.5858361047
 20
-201.9922700522
 10
542.382920153
 20
-199.8603621918
 10
539.9860472633
 20
-198.0199226682
 10
537.4061538169
 20
-196.4793489849
 10
534.6550112757
 20
-195.2456704263
 10
531.7451724723
 20
-194.3245159846
 10
528.6899143337
 20
-193.7200886764
 10
525.503177302
 20
-193.4351463648
 10
522.1995017274
 20
-193.4709891763
 10
518.7939615238
 20
-193.8274535682
 10
515.30209539
 20
-194.5029130753
 10
511.7398359104
 20
-195.4942857308
 10
508.1234368578
 20
-196.7970481288
 10
504.4693990318
 20
-198.405256063
 10
500.7943949688
 20
-200.3115716497
 10
497.1151928694
 20
-202.507296808
 10
493.4485800891
 20
-204.9824129477
 10
489.8112865408
 20
-207.7256266814
 10
486.2199083609
 20
-210.7244213541
 10
482.6908321842
 20
-213.9651141535
 10
479.240160376
 20
-217.4329185417
 10
475.8836375601
 20
-221.1120117225
 10
472.6365787805
 20
-224.9856068378
 10
469.5137996215
 20
-229.0360295613
 10
466.5295486082
 20
-233.2447987432
 10
463.6974421935
 20
-237.5927107351
 10
461.0304026295
 20
-242.0599270118
 10
458.5405990058
 20
-246.62606469
 10
456.2393917255
 20
-251.2702895308
 10
454.1372806695
 20
-255.9714110014
 10
452.2438572884
 20
-260.7079789628
 10
450.5677608389
 20
-265.4583815417
 10
449.1166389646
 20
-270.2009437409
 10
447.8971128017
 20
-274.9140263366
 10
446.9147467685
 20
-279.576124614
 10
446.1740231759
 20
-284.1659664881
 10
445.6783217757
 20
-288.6626095629
 10
445.4299043397
 20
-293.0455366876
 10
445.4299043397
 20
-297.2947495709
 10
445.6783217757
 20
-301.390860029
 10
446.1740231759
 20
-305.3151784495
 10
446.9147467685
 20
-309.0497990673
 10
447.8971128017
 20
-312.5776816653
 10
449.1166389646
 20
-315.8827293243
 10
450.5677608389
 20
-318.9498618699
 10
452.2438572884
 20
-321.7650846797
 10
454.1372806695
 20
-324.3155525377
 10
456.2393917255
 20
-326.5896282441
 10
458.5405990058
 20
-328.5769357131
 10
461.0304026295
 20
-330.2684073165
 10
463.6974421935
 20
-331.6563252572
 10
466.5295486082
 20
-332.7343567841
 10
469.5137996215
 20
-333.4975830865
 10
472.6365787805
 20
-333.9425217379
 10
475.8836375601
 20
-334.0671425853
 10
479.240160376
 20
-333.8708770124
 10
482.6908321842
 20
-333.3546205339
 10
486.2199083609
 20
-332.5207287097
 10
489.8112865408
 20
-331.373006397
 10
493.4485800891
 20
-329.9166903894
 10
497.1151928694
 20
-328.1584255228
 10
500.7943949688
 20
-326.1062343567
 10
504.4693990318
 20
-323.7694805685
 10
508.1234368578
 20
-321.1588262298
 10
511.7398359104
 20
-318.2861831577
 10
515.30209539
 20
-315.1646585635
 10
518.7939615238
 20
-311.8084952481
 10
522.1995017274
 20
-308.2330066149
 10
525.503177302
 20
-304.4545067984
 10
528.6899143337
 20
-300.4902362267
 10
531.7451724723
 20
-296.3582829572
 10
534.6550112757
 20
-292.0775001448
 10
537.4061538169
 20
-287.6674200198
 10
539.9860472633
 20
-283.1481647663
 10
542.382920153
 20
-278.5403547094
 10
544.5858361047
 20
-273.8650142295
 10
546.5847437182
 20
-269.1434758331
 10
548.3705224365
 20
-264.3972828167
 10
549.9350241608
 20
-259.6480909706
 10
551.2711104287
 20
-254.917569768
 10
552.372684985
 20
-250.2273034919
 10
553.2347215976
 20
-245.5986927518
 10
553.8532869912
 20
-241.0528568367
 10
554.2255587938
 20
-236.6105373534
 10
554.3498384144
 20
-232.2920035867
  0
LWPOLYLINE
  5
E6
330
1F
100
AcDbEntity
  8
0
  6
Continuous
 62
     7
370
    25
100
AcDbPolyline
 90
       14
 70
   128
 43
0.0
 10
598.2611695261
 20
-251.8449778649
 10
598.1363961502
 20
-247.4698271365
 10
597.7625993656
 20
-243.2570875841
 10
597.1413470057
 20
-239.2244289014
 10
596.2752448189
 20
-235.3887654603
 10
595.1679255389
 20
-231.7661853664
 10
593.8240336473
 20
-228.3718829794
 10
592.2492058939
 20
-225.2200951832
 10
590.4500476536
 20
-222.3240416711
 10
588.4341052213
 20
-219.6958694981
 10
586.2098341601
 20
-217.3466021314
 10
583.7865638359
 20
-215.286093215
 10
581.1744582865
 20
-213.5229852393
 10
580.8317860391
 20
-213.3219158486
  0
LWPOLYLINE
  5
E7
330
1F
100
AcDbEntity
  8
0
  6
Continuous
 62
     7
370
    25
100
AcDbPolyline
 90
       38
 70
   128
 43
0.0
 10
496.6986238751
 20
-359.06061841
 10
497.7294235417
 20
-359.6272170783
 10
500.6040042476
 20
-360.9307562944
 10
503.6386462912
 20
-361.9208121191
 10
506.8206213292
 20
-362.5932319142
 10
510.1365830525
 20
-362.9451953175
 10
513.5726231652
 20
-362.9752260721
 10
517.114329721
 20
-362.6831982186
 10
520.7468475717
 20
-362.0703366232
 10
524.4549406751
 20
-361.1392118406
 10
528.2230560001
 20
-359.8937293316
 10
532.0353887615
 20
-358.3391130827
 10
535.8759487107
 20
-356.4818836947
 10
539.7286272048
 20
-354.3298310331
 10
543.5772647711
 20
-351.8919815547
 10
547.4057188863
 20
-349.1785604474
 10
551.1979316832
 20
-346.2009487422
 10
554.9379973036
 20
-342.9716355776
 10
558.6102286125
 20
-339.504165815
 10
562.1992229955
 20
-335.8130832279
 10
565.6899269629
 20
-331.9138694992
 10
569.0676992893
 20
-327.8228792865
 10
572.3183724235
 20
-323.5572716244
 10
575.4283119129
 20
-319.1349379538
 10
578.3844735903
 20
-314.5744270791
 10
581.1744582865
 20
-309.8948673676
 10
583.7865638359
 20
-305.1158865192
 10
586.2098341601
 20
-300.2575292403
 10
588.4341052213
 20
-295.3401731698
 10
590.4500476536
 20
-290.3844434078
 10
592.2492058939
 20
-285.4111260073
 10
593.8240336473
 20
-280.4410807897
 10
595.1679255389
 20
-275.495153852
 10
596.2752448189
 20
-270.5940901306
 10
597.1413470057
 20
-265.7584463899
 10
597.7625993656
 20
-261.0085050003
 10
598.1363961502
 20
-256.3641888666
 10
598.2611695261
 20
-251.8449778649
  0
LWPOLYLINE
  5
E8
330
1F
100
AcDbEntity
  8
0
  6
Continuous
 62
     7
370
    25
100
AcDbPolyline
 90
       14
 70
   128
 43
0.0
 10
782.4624860252
 20
-356.1411141502
 10
782.3366131183
 20
-351.6811251731
 10
781.9595116363
 20
-347.3847930123
 10
781.3327311701
 20
-343.2697722182
 10
780.458847295
 20
-339.3529722939
 10
779.3414509875
 20
-335.6504882104
 10
777.9851338685
 20
-332.177534269
 10
776.395469336
 20
-328.9483815825
 10
774.5789896627
 20
-325.9762994317
 10
772.5431591531
 20
-323.2735007399
 10
770.2963434714
 20
-320.8510918866
 10
767.8477752652
 20
-318.7190270694
 10
765.2075162266
 20
-316.8860673999
 10
764.515234001
 20
-316.4734401177
  0
LWPOLYLINE
  5
E9
330
1F
100
AcDbEntity
  8
0
  6
Continuous
 62
     7
370
    25
100
AcDbPolyline
 90
       38
 70
   128
 43
0.0
 10
677.8822750054
 20
-466.5423869911
 10
680.0110932602
 20
-467.6560822062
 10
683.0014426754
 20
-468.8694955448
 10
686.1487530382
 20
-469.765013549
 10
689.4400913752
 20
-470.3389563432
 10
692.8619328712
 20
-470.5889654734
 10
696.4002164456
 20
-470.5140135984
 10
700.040402532
 20
-470.1144087116
 10
703.7675328252
 20
-469.3917928751
 10
707.5662917473
 20
-468.3491354725
 10
711.4210693829
 20
-466.9907210066
 10
715.316025624
 20
-465.3221314939
 10
719.23515526
 20
-463.3502235266
 10
723.1623537464
 20
-461.0831000974
 10
727.0814833823
 20
-458.530077303
 10
730.9764396235
 20
-455.7016460615
 10
734.8312172591
 20
-452.6094290036
 10
738.6299761812
 20
-449.2661327125
 10
742.3571064743
 20
-445.6854955097
 10
745.9972925608
 20
-441.8822310017
 10
749.5355761351
 20
-437.871967618
 10
752.9574176312
 20
-433.6711843911
 10
756.2487559682
 20
-429.2971432403
 10
759.396066331
 20
-424.767818039
 10
762.3864157462
 20
-420.101820756
 10
765.2075162266
 20
-415.3183249749
 10
767.8477752652
 20
-410.4369871059
 10
770.2963434714
 20
-405.4778656134
 10
772.5431591531
 20
-400.4613385914
 10
774.5789896627
 20
-395.4080200254
 10
776.395469336
 20
-390.3386750854
 10
777.9851338685
 20
-385.274134797
 10
779.3414509875
 20
-380.2352104426
 10
780.458847295
 20
-375.2426080434
 10
781.3327311701
 20
-370.3168432734
 10
781.9595116363
 20
-365.4781571566
 10
782.3366131183
 20
-360.7464328922
 10
782.4624860252
 20
-356.1411141502
  0
LWPOLYLINE
  5
EA
330
1F
100
AcDbEntity
  8
0
  6
Continuous
 62
     7
370
    25
100
AcDbPolyline
 90
       18
 70
   128
 43
0.0
 10
600.0289364791
 20
-250.8244677251
 10
599.9030635721
 20
-246.364478748
 10
599.5259620901
 20
-242.0681465872
 10
598.8991816239
 20
-237.9531257931
 10
598.0252977489
 20
-234.0363258687
 10
596.9079014413
 20
-230.3338417853
 10
595.5515843223
 20
-226.8608878439
 10
593.9619197899
 20
-223.6317351573
 10
592.1454401166
 20
-220.6596530066
 10
590.1096096069
 20
-217.9568543148
 10
587.8627939253
 20
-215.5344454615
 10
585.4142257191
 20
-213.4023806443
 10
582.7739666804
 20
-211.5694209748
 10
579.9528662
 20
-210.0430984775
 10
576.9625167848
 20
-208.8296851389
 10
573.815206422
 20
-207.9341671347
 10
570.523868085
 20
-207.3602243405
 10
570.4995622781
 20
-207.3572500329
  0
LWPOLYLINE
  5
EB
330
1F
100
AcDbEntity
  8
0
  6
Continuous
 62
     7
370
    25
100
AcDbPolyline
 90
       42
 70
   128
 43
0.0
 10
486.3664001141
 20
-353.0959525943
 10
487.4208003072
 20
-354.4256799437
 10
489.6676159889
 20
-356.848088797
 10
492.116184195
 20
-358.9801536143
 10
494.7564432337
 20
-360.8131132838
 10
497.5775437141
 20
-362.3394357811
 10
500.5678931293
 20
-363.5528491197
 10
503.7152034921
 20
-364.4483671238
 10
507.0065418291
 20
-365.0223099181
 10
510.4283833251
 20
-365.2723190482
 10
513.9666668994
 20
-365.1973671733
 10
517.6068529859
 20
-364.7977622864
 10
521.3339832791
 20
-364.07514645
 10
525.1327422011
 20
-363.0324890474
 10
528.9875198368
 20
-361.6740745815
 10
532.8824760779
 20
-360.0054850688
 10
536.8016057139
 20
-358.0335771014
 10
540.7288042003
 20
-355.7664536723
 10
544.6479338362
 20
-353.2134308778
 10
548.5428900773
 20
-350.3849996363
 10
552.397667713
 20
-347.2927825784
 10
556.196426635
 20
-343.9494862873
 10
559.9235569282
 20
-340.3688490846
 10
563.5637430147
 20
-336.5655845765
 10
567.102026589
 20
-332.5553211929
 10
570.523868085
 20
-328.354537966
 10
573.815206422
 20
-323.9804968152
 10
576.9625167848
 20
-319.4511716139
 10
579.9528662
 20
-314.7851743308
 10
582.7739666805
 20
-310.0016785497
 10
585.4142257191
 20
-305.1203406808
 10
587.8627939253
 20
-300.1612191883
 10
590.1096096069
 20
-295.1446921663
 10
592.1454401166
 20
-290.0913736003
 10
593.9619197899
 20
-285.0220286602
 10
595.5515843223
 20
-279.9574883718
 10
596.9079014413
 20
-274.9185640175
 10
598.0252977489
 20
-269.9259616182
 10
598.8991816239
 20
-265.0001968482
 10
599.5259620901
 20
-260.1615107315
 10
599.9030635721
 20
-255.4297864671
 10
600.0289364791
 20
-250.8244677251
  0
LWPOLYLINE
  5
EC
330
1F
100
AcDbEntity
  8
0
  6
Continuous
 62
     7
370
    25
100
AcDbPolyline
 90
       15
 70
   128
 43
0.0
 10
875.0298347503
 20
-390.8751972677
 10
874.9057652017
 20
-385.8860671948
 10
874.5339539881
 20
-381.0561664613
 10
873.9155921328
 20
-376.4009666954
 10
873.0526604354
 20
-371.9353799053
 10
871.9479231262
 20
-367.6737107119
 10
870.6049190118
 20
-363.6296105262
 10
869.0279501394
 20
-359.8160338204
 10
867.2220680155
 20
-356.2451966304
 10
865.1930574252
 20
-352.9285374243
 10
862.947417901
 20
-349.8766804613
 10
860.4923429033
 20
-347.0994017594
 10
857.8356967775
 20
-344.6055977795
 10
854.9859895621
 20
-342.4032569276
 10
852.3368354515
 20
-340.718298719
  0
LWPOLYLINE
  5
ED
330
1F
100
AcDbEntity
  8
0
  6
Continuous
 62
     7
370
    25
100
AcDbPolyline
 90
       43
 70
   128
 43
0.0
 10
742.7957382912
 20
-530.4696044666
 10
744.7630040701
 20
-531.5264927969
 10
748.0541465531
 20
-532.9714084543
 10
751.5038913483
 20
-534.1043947604
 10
755.1011878829
 20
-534.9218224186
 10
758.8345129318
 20
-535.4210729617
 10
762.6919075294
 20
-535.6005471396
 10
766.6610152777
 20
-535.4596700425
 10
770.7291219281
 20
-534.9988929422
 10
774.8831961085
 20
-534.2196918465
 10
779.109931067
 20
-533.1245627716
 10
783.3957872974
 20
-531.7170137461
 10
787.7270359099
 20
-530.0015535737
 10
792.0898026095
 20
-527.9836773907
 10
796.4701121393
 20
-525.6698490627
 10
800.8539330472
 20
-523.0674804795
 10
805.2272226332
 20
-520.1849078121
 10
809.5759719324
 20
-517.0313648099
 10
813.8862505898
 20
-513.6169532218
 10
818.1442514832
 20
-509.9526104374
 10
822.3363349523
 20
-506.0500744515
 10
826.4490724899
 20
-501.9218462633
 10
830.4692897576
 20
-497.5811498323
 10
834.3841087877
 20
-493.0418897177
 10
838.1809892345
 20
-488.3186065381
 10
841.8477685453
 20
-483.4264303936
 10
845.3727009205
 20
-478.3810323992
 10
848.7444949391
 20
-473.1985744857
 10
851.9523497283
 20
-467.8956576282
 10
854.9859895621
 20
-462.4892686681
 10
857.8356967775
 20
-456.9967258991
 10
860.4923429033
 20
-451.4356235917
 10
862.947417901
 20
-445.823775633
 10
865.1930574252
 20
-440.1791584638
 10
867.2220680155
 20
-434.5198534947
 10
869.0279501394
 20
-428.8639891856
 10
870.6049190118
 20
-423.229682975
 10
871.9479231262
 20
-417.6349832443
 10
873.0526604354
 20
-412.0978115034
 10
873.9155921328
 20
-406.6359049828
 10
874.5339539881
 20
-401.2667598155
 10
874.9057652017
 20
-396.0075749924
 10
875.0298347503
 20
-390.8751972677
  0
LWPOLYLINE
  5
EE
330
1F
100
AcDbEntity
  8
0
  6
Continuous
 62
     7
370
    25
100
AcDbPolyline
 90
       27
 70
   128
 43
0.0
 10
798.6623023822
 20
-346.7891592293
 10
798.5382328336
 20
-341.8000291564
 10
798.1664216199
 20
-336.9701284229
 10
797.5480597647
 20
-332.314928657
 10
796.6851280673
 20
-327.8493418669
 10
795.580390758
 20
-323.5876726734
 10
794.2373866437
 20
-319.5435724878
 10
792.6604177712
 20
-315.729995782
 10
790.8545356474
 20
-312.159158592
 10
788.8255250571
 20
-308.8424993859
 10
786.5798855329
 20
-305.7906424229
 10
784.1248105352
 20
-303.013363721
 10
781.4681644094
 20
-300.5195597411
 10
778.6184571939
 20
-298.3172188892
 10
775.5848173601
 20
-296.413395927
 10
772.376962571
 20
-294.8141893734
 10
769.0051685524
 20
-293.5247219691
 10
765.4802361771
 20
-292.549124267
 10
761.8134568663
 20
-291.8905214006
 10
758.0165764195
 20
-291.5510230734
 10
754.1017573895
 20
-291.531716801
 10
750.0815401217
 20
-291.8326644271
 10
745.9688025842
 20
-292.4529019258
 10
741.7767191151
 20
-293.3904424894
 10
737.5187182216
 20
-294.6422828928
 10
733.2084395643
 20
-296.2044131138
 10
730.9912000207
 20
-297.1204272414
  0
LWPOLYLINE
  5
EF
330
1F
100
AcDbEntity
  8
0
  6
Continuous
 62
     7
370
    25
100
AcDbPolyline
 90
       55
 70
   128
 43
0.0
 10
644.3582410251
 20
-447.1893741147
 10
644.5095548355
 20
-448.3960818753
 10
645.2504983544
 20
-452.9583022901
 10
646.2347270343
 20
-457.323678584
 10
647.459088094
 20
-461.4782271407
 10
648.9196595359
 20
-465.4086396887
 10
650.6117627093
 20
-469.1023259316
 10
652.5299772977
 20
-472.5474538789
 10
654.6681586814
 20
-475.7329877471
 10
657.0194576208
 20
-478.6487233109
 10
659.5763421966
 20
-481.2853205902
 10
662.3306219367
 20
-483.6343337692
 10
665.2734740526
 20
-485.6882382503
 10
668.3954717019
 20
-487.4404547585
 10
671.686614185
 20
-488.8853704158
 10
675.1363589801
 20
-490.018356722
 10
678.7336555148
 20
-490.8357843802
 10
682.4669805637
 20
-491.3350349233
 10
686.3243751612
 20
-491.5145091012
 10
690.2934829095
 20
-491.3736320041
 10
694.3615895599
 20
-490.9128549037
 10
698.5156637403
 20
-490.1336538081
 10
702.7423986989
 20
-489.0385247332
 10
707.0282549292
 20
-487.6309757077
 10
711.3595035417
 20
-485.9155155353
 10
715.7222702414
 20
-483.8976393523
 10
720.1025797711
 20
-481.5838110243
 10
724.486400679
 20
-478.981442441
 10
728.8596902651
 20
-476.0988697737
 10
733.2084395643
 20
-472.9453267715
 10
737.5187182216
 20
-469.5309151833
 10
741.7767191151
 20
-465.866572399
 10
745.9688025842
 20
-461.9640364131
 10
750.0815401217
 20
-457.8358082249
 10
754.1017573895
 20
-453.4951117939
 10
758.0165764195
 20
-448.9558516792
 10
761.8134568663
 20
-444.2325684997
 10
765.4802361771
 20
-439.3403923552
 10
769.0051685524
 20
-434.2949943607
 10
772.376962571
 20
-429.1125364472
 10
775.5848173601
 20
-423.8096195898
 10
778.6184571939
 20
-418.4032306297
 10
781.4681644094
 20
-412.9106878607
 10
784.1248105352
 20
-407.3495855533
 10
786.5798855329
 20
-401.7377375945
 10
788.8255250571
 20
-396.0931204253
 10
790.8545356474
 20
-390.4338154562
 10
792.6604177712
 20
-384.7779511471
 10
794.2373866437
 20
-379.1436449366
 10
795.580390758
 20
-373.5489452059
 10
796.6851280673
 20
-368.011773465
 10
797.5480597647
 20
-362.5498669443
 10
798.1664216199
 20
-357.1807217771
 10
798.5382328336
 20
-351.9215369539
 10
798.6623023822
 20
-346.7891592293
  0
ARC
  5
F0
330
1F
100
AcDbEntity
  8
0
  6
Continuous
 62
     7
370
    25
100
AcDbCircle
 10
847.7945024531
 20
-438.7213111428
 30
0.0
 40
44.88392276854629
100
AcDbArc
 50
359.0418169851
 51
17.3721388822
  0
LWPOLYLINE
  5
F1
330
1F
100
AcDbEntity
  8
0
  6
Continuous
 62
     7
370
    25
100
AcDbPolyline
 90
       26
 70
   128
 43
0.0
 10
835.20923562
 20
-521.3238568094
 10
837.7143149194
 20
-520.6954117636
 10
840.9868445882
 20
-519.6044891151
 10
844.3022827743
 20
-518.200708938
 10
847.641638948
 20
-516.4921119579
 10
850.9857855795
 20
-514.4884848637
 10
854.3155676999
 20
-512.2013042498
 10
857.6119126185
 20
-509.6436708797
 10
860.8559391703
 20
-506.8302346458
 10
864.0290658649
 20
-503.777110656
 10
867.1131173201
 20
-500.501786928
 10
870.0904283682
 20
-497.0230242196
 10
872.9439452414
 20
-493.3607485684
 10
875.6573232533
 20
-489.5359371578
 10
878.2150204204
 20
-485.5704981612
 10
880.602386485
 20
-481.487145254
 10
882.8057468304
 20
-477.3092675118
 10
884.8124808082
 20
-473.0607954401
 10
886.6110940278
 20
-468.7660639022
 10
888.1912841955
 20
-464.4496727313
 10
889.5440001253
 20
-460.1363458252
 10
890.6614935828
 20
-455.8507895298
 10
891.5373636665
 20
-451.6175511235
 10
892.1665934721
 20
-447.4608782124
 10
892.5455788282
 20
-443.4045798427
 10
892.6721489409
 20
-439.471890124
  0
LWPOLYLINE
  5
F2
330
1F
100
AcDbEntity
  8
0
  6
Continuous
 62
     7
370
    25
100
AcDbPolyline
 90
       12
 70
   128
 43
0.0
 10
1012.8803017426
 20
-508.8665796289
 10
1012.7537316299
 20
-505.0800246518
 10
1012.3747462738
 20
-501.4612934603
 10
1011.7455164682
 20
-498.031113819
 10
1010.8696463845
 20
-494.8091334861
 10
1009.752152927
 20
-491.8138076734
 10
1008.3994369973
 20
-489.0622933357
 10
1006.8192468295
 20
-486.570350898
 10
1005.0206336099
 20
-484.352253981
 10
1003.0138996321
 20
-482.4207076429
 10
1000.8105392867
 20
-480.7867756061
 10
999.9335883134
 20
-480.2512792246
  0
LWPOLYLINE
  5
F3
330
1F
100
AcDbEntity
  8
0
  6
Continuous
 62
     7
370
    25
100
AcDbPolyline
 90
       33
 70
   128
 43
0.0
 10
937.4386675236
 20
-588.5073870222
 10
937.7332297183
 20
-588.6742584797
 10
940.2075335423
 20
-589.8447685647
 10
942.844960176
 20
-590.6975776583
 10
945.6304026783
 20
-591.2278009475
 10
948.5479062869
 20
-591.4324013611
 10
951.5807598052
 20
-591.3102069665
 10
954.7115913231
 20
-590.8619176822
 10
957.9224677211
 20
-590.0901012685
 10
961.1949973899
 20
-588.9991786201
 10
964.510435576
 20
-587.5953984429
 10
967.8497917497
 20
-585.8868014628
 10
971.1939383813
 20
-583.8831743686
 10
974.5237205016
 20
-581.5959937547
 10
977.8200654202
 20
-579.0383603847
 10
981.064091972
 20
-576.2249241508
 10
984.2372186666
 20
-573.171800161
 10
987.3212701218
 20
-569.896476433
 10
990.2985811699
 20
-566.4177137245
 10
993.1520980431
 20
-562.7554380733
 10
995.865476055
 20
-558.9306266627
 10
998.4231732221
 20
-554.9651876661
 10
1000.8105392867
 20
-550.8818347589
 10
1003.0138996321
 20
-546.7039570167
 10
1005.0206336099
 20
-542.4554849451
 10
1006.8192468295
 20
-538.1607534071
 10
1008.3994369973
 20
-533.8443622362
 10
1009.752152927
 20
-529.5310353301
 10
1010.8696463845
 20
-525.2454790347
 10
1011.7455164682
 20
-521.0122406284
 10
1012.3747462738
 20
-516.8555677173
 10
1012.7537316299
 20
-512.7992693476
 10
1012.8803017426
 20
-508.8665796289
  0
ENDSEC
  0
SECTION
  2
OBJECTS
  0
DICTIONARY
  5
C
330
0
100
AcDbDictionary
281
     1
  3
ACAD_GROUP
350
D
  3
ACAD_LAYOUT
350
1A
  3
ACAD_MLINESTYLE
350
17
  3
ACAD_PLOTSETTINGS
350
19
  3
ACAD_PLOTSTYLENAME
350
E
  3
ACAD_SCALELIST
350
47
  3
DWGPROPS
350
F4
  0
DICTIONARY
  5
D
102
{ACAD_REACTORS
330
C
102
}
330
C
100
AcDbDictionary
281
     1
  0
DICTIONARY
  5
1A
102
{ACAD_REACTORS
330
C
102
}
330
C
100
AcDbDictionary
281
     1
  3
Layout1
350
1E
  3
Layout2
350
26
  3
Model
350
22
  0
DICTIONARY
  5
17
102
{ACAD_REACTORS
330
C
102
}
330
C
100
AcDbDictionary
281
     1
  3
Standard
350
18
  0
DICTIONARY
  5
19
102
{ACAD_REACTORS
330
C
102
}
330
C
100
AcDbDictionary
281
     1
  0
ACDBDICTIONARYWDFLT
  5
E
102
{ACAD_REACTORS
330
C
102
}
330
C
100
AcDbDictionary
281
     1
  3
Normal
350
F
100
AcDbDictionaryWithDefault
340
F
  0
DICTIONARY
  5
47
102
{ACAD_REACTORS
330
C
102
}
330
C
100
AcDbDictionary
281
     1
  3
A0
350
48
  3
A1
350
49
  3
A2
350
4A
  3
A3
350
4B
  3
A4
350
4C
  3
A5
350
4D
  3
A6
350
4E
  3
A7
350
4F
  3
A8
350
50
  3
A9
350
51
  3
B0
350
52
  3
B1
350
53
  3
B2
350
54
  3
B3
350
55
  3
B4
350
56
  3
B5
350
57
  3
B6
350
58
  3
B7
350
59
  3
B8
350
5A
  3
B9
350
5B
  3
C0
350
5C
  3
C1
350
5D
  3
C2
350
5E
  3
C3
350
5F
  3
C4
350
60
  3
C5
350
61
  3
C6
350
62
  3
C7
350
63
  3
C8
350
64
  3
C9
350
65
  3
D0
350
66
  3
D1
350
67
  3
D2
350
68
  0
XRECORD
  5
F4
102
{ACAD_REACTORS
330
C
102
}
330
C
100
AcDbXrecord
280
     1
  1
DWGPROPS COOKIE
  2

  3

  4

  6

  7

  8
b.kav
  9

300
=
301
=
302
=
303
=
304
=
305
=
306
=
307
=
308
=
309
=
 40
0.0
 41
2459935.584693241
 42
2459935.584693414
  1

 90
        0
  0
LAYOUT
  5
1E
102
{ACAD_REACTORS
330
1A
102
}
330
1A
100
AcDbPlotSettings
  1

  2
none_device
  4

  6

 40
0.0
 41
0.0
 42
0.0
 43
0.0
 44
0.0
 45
0.0
 46
0.0
 47
0.0
 48
0.0
 49
0.0
140
0.0
141
0.0
142
1.0
143
1.0
 70
   688
 72
     1
 73
     0
 74
     5
  7

 75
    16
147
1.0
148
0.0
149
0.0
100
AcDbLayout
  1
Layout1
 70
     1
 71
     1
 10
0.0
 20
0.0
 11
420.0
 21
297.0
 12
0.0
 22
0.0
 32
0.0
 14
1.0000000000E+20
 24
1.0000000000E+20
 34
1.0000000000E+20
 15
-1.0000000000E+20
 25
-1.0000000000E+20
 35
-1.0000000000E+20
146
0.0
 13
0.0
 23
0.0
 33
0.0
 16
1.0
 26
0.0
 36
0.0
 17
0.0
 27
1.0
 37
0.0
 76
     0
330
1B
  0
LAYOUT
  5
26
102
{ACAD_REACTORS
330
1A
102
}
330
1A
100
AcDbPlotSettings
  1

  2
none_device
  4

  6

 40
0.0
 41
0.0
 42
0.0
 43
0.0
 44
0.0
 45
0.0
 46
0.0
 47
0.0
 48
0.0
 49
0.0
140
0.0
141
0.0
142
1.0
143
1.0
 70
   688
 72
     1
 73
     0
 74
     5
  7

 75
    16
147
1.0
148
0.0
149
0.0
100
AcDbLayout
  1
Layout2
 70
     1
 71
     2
 10
0.0
 20
0.0
 11
0.0
 21
0.0
 12
0.0
 22
0.0
 32
0.0
 14
0.0
 24
0.0
 34
0.0
 15
0.0
 25
0.0
 35
0.0
146
0.0
 13
0.0
 23
0.0
 33
0.0
 16
1.0
 26
0.0
 36
0.0
 17
0.0
 27
1.0
 37
0.0
 76
     0
330
23
  0
LAYOUT
  5
22
102
{ACAD_REACTORS
330
1A
102
}
330
1A
100
AcDbPlotSettings
  1

  2
none_device
  4
Letter_(8.50_x_11.00_Inches)
  6

 40
6.35
 41
6.35
 42
6.35000508
 43
6.35000508
 44
215.9
 45
279.4
 46
0.0
 47
0.0
 48
0.0
 49
0.0
140
0.0
141
0.0
142
1.0
143
1.0
 70
  1712
 72
     1
 73
     0
 74
     0
  7

 75
     0
147
1.0
148
0.0
149
0.0
100
AcDbLayout
  1
Model
 70
     1
 71
     0
 10
0.0
 20
0.0
 11
279.4
 21
215.9
 12
0.0
 22
0.0
 32
0.0
 14
0.0
 24
0.0
 34
0.0
 15
279.4
 25
215.9
 35
0.0
146
0.0
 13
0.0
 23
0.0
 33
0.0
 16
1.0
 26
0.0
 36
0.0
 17
0.0
 27
1.0
 37
0.0
 76
     0
330
1F
331
29
  0
MLINESTYLE
  5
18
102
{ACAD_REACTORS
330
17
102
}
330
17
100
AcDbMlineStyle
  2
Standard
 70
     0
  3

 62
   256
 51
90.0
 52
90.0
 71
     2
 49
0.5
 62
   256
  6
BYLAYER
 49
-0.5
 62
   256
  6
BYLAYER
  0
ACDBPLACEHOLDER
  5
F
102
{ACAD_REACTORS
330
E
102
}
330
E
  0
SCALE
  5
48
102
{ACAD_REACTORS
330
47
102
}
330
47
100
AcDbScale
 70
     0
300
1:1
140
1.0
141
1.0
290
     1
  0
SCALE
  5
49
102
{ACAD_REACTORS
330
47
102
}
330
47
100
AcDbScale
 70
     0
300
1:2
140
1.0
141
2.0
290
     0
  0
SCALE
  5
4A
102
{ACAD_REACTORS
330
47
102
}
330
47
100
AcDbScale
 70
     0
300
1:4
140
1.0
141
4.0
290
     0
  0
SCALE
  5
4B
102
{ACAD_REACTORS
330
47
102
}
330
47
100
AcDbScale
 70
     0
300
1:5
140
1.0
141
5.0
290
     0
  0
SCALE
  5
4C
102
{ACAD_REACTORS
330
47
102
}
330
47
100
AcDbScale
 70
     0
300
1:8
140
1.0
141
8.0
290
     0
  0
SCALE
  5
4D
102
{ACAD_REACTORS
330
47
102
}
330
47
100
AcDbScale
 70
     0
300
1:10
140
1.0
141
10.0
290
     0
  0
SCALE
  5
4E
102
{ACAD_REACTORS
330
47
102
}
330
47
100
AcDbScale
 70
     0
300
1:16
140
1.0
141
16.0
290
     0
  0
SCALE
  5
4F
102
{ACAD_REACTORS
330
47
102
}
330
47
100
AcDbScale
 70
     0
300
1:20
140
1.0
141
20.0
290
     0
  0
SCALE
  5
50
102
{ACAD_REACTORS
330
47
102
}
330
47
100
AcDbScale
 70
     0
300
1:30
140
1.0
141
30.0
290
     0
  0
SCALE
  5
51
102
{ACAD_REACTORS
330
47
102
}
330
47
100
AcDbScale
 70
     0
300
1:40
140
1.0
141
40.0
290
     0
  0
SCALE
  5
52
102
{ACAD_REACTORS
330
47
102
}
330
47
100
AcDbScale
 70
     0
300
1:50
140
1.0
141
50.0
290
     0
  0
SCALE
  5
53
102
{ACAD_REACTORS
330
47
102
}
330
47
100
AcDbScale
 70
     0
300
1:100
140
1.0
141
100.0
290
     0
  0
SCALE
  5
54
102
{ACAD_REACTORS
330
47
102
}
330
47
100
AcDbScale
 70
     0
300
2:1
140
2.0
141
1.0
290
     0
  0
SCALE
  5
55
102
{ACAD_REACTORS
330
47
102
}
330
47
100
AcDbScale
 70
     0
300
4:1
140
4.0
141
1.0
290
     0
  0
SCALE
  5
56
102
{ACAD_REACTORS
330
47
102
}
330
47
100
AcDbScale
 70
     0
300
8:1
140
8.0
141
1.0
290
     0
  0
SCALE
  5
57
102
{ACAD_REACTORS
330
47
102
}
330
47
100
AcDbScale
 70
     0
300
10:1
140
10.0
141
1.0
290
     0
  0
SCALE
  5
58
102
{ACAD_REACTORS
330
47
102
}
330
47
100
AcDbScale
 70
     0
300
100:1
140
100.0
141
1.0
290
     0
  0
SCALE
  5
59
102
{ACAD_REACTORS
330
47
102
}
330
47
100
AcDbScale
 70
     0
300
1/128" = 1'-0"
140
0.0078125
141
12.0
290
     0
  0
SCALE
  5
5A
102
{ACAD_REACTORS
330
47
102
}
330
47
100
AcDbScale
 70
     0
300
1/64" = 1'-0"
140
0.015625
141
12.0
290
     0
  0
SCALE
  5
5B
102
{ACAD_REACTORS
330
47
102
}
330
47
100
AcDbScale
 70
     0
300
1/32" = 1'-0"
140
0.03125
141
12.0
290
     0
  0
SCALE
  5
5C
102
{ACAD_REACTORS
330
47
102
}
330
47
100
AcDbScale
 70
     0
300
1/16" = 1'-0"
140
0.0625
141
12.0
290
     0
  0
SCALE
  5
5D
102
{ACAD_REACTORS
330
47
102
}
330
47
100
AcDbScale
 70
     0
300
3/32" = 1'-0"
140
0.09375
141
12.0
290
     0
  0
SCALE
  5
5E
102
{ACAD_REACTORS
330
47
102
}
330
47
100
AcDbScale
 70
     0
300
1/8" = 1'-0"
140
0.125
141
12.0
290
     0
  0
SCALE
  5
5F
102
{ACAD_REACTORS
330
47
102
}
330
47
100
AcDbScale
 70
     0
300
3/16" = 1'-0"
140
0.1875
141
12.0
290
     0
  0
SCALE
  5
60
102
{ACAD_REACTORS
330
47
102
}
330
47
100
AcDbScale
 70
     0
300
1/4" = 1'-0"
140
0.25
141
12.0
290
     0
  0
SCALE
  5
61
102
{ACAD_REACTORS
330
47
102
}
330
47
100
AcDbScale
 70
     0
300
3/8" = 1'-0"
140
0.375
141
12.0
290
     0
  0
SCALE
  5
62
102
{ACAD_REACTORS
330
47
102
}
330
47
100
AcDbScale
 70
     0
300
1/2" = 1'-0"
140
0.5
141
12.0
290
     0
  0
SCALE
  5
63
102
{ACAD_REACTORS
330
47
102
}
330
47
100
AcDbScale
 70
     0
300
3/4" = 1'-0"
140
0.75
141
12.0
290
     0
  0
SCALE
  5
64
102
{ACAD_REACTORS
330
47
102
}
330
47
100
AcDbScale
 70
     0
300
1" = 1'-0"
140
1.0
141
12.0
290
     0
  0
SCALE
  5
65
102
{ACAD_REACTORS
330
47
102
}
330
47
100
AcDbScale
 70
     0
300
1-1/2" = 1'-0"
140
1.5
141
12.0
290
     0
  0
SCALE
  5
66
102
{ACAD_REACTORS
330
47
102
}
330
47
100
AcDbScale
 70
     0
300
3" = 1'-0"
140
3.0
141
12.0
290
     0
  0
SCALE
  5
67
102
{ACAD_REACTORS
330
47
102
}
330
47
100
AcDbScale
 70
     0
300
6" = 1'-0"
140
6.0
141
12.0
290
     0
  0
SCALE
  5
68
102
{ACAD_REACTORS
330
47
102
}
330
47
100
AcDbScale
 70
     0
300
1'-0" = 1'-0"
140
12.0
141
12.0
290
     0
  0
ENDSEC
  0
EOF
